Текст песни и перевод Billy Idol - Kiss Me Deadly
.
SongsText.Ru

Billy Idol — Kiss Me Deadly слова песни и перевод

* begin distortion
~ vibrato
x mute
/ slide

Intro:
----------------------------------------------
--------3-----3------3---3------3------3------
------0-------0----0-0---0------0------0------
----5------4-----2-----0------0------0--------
----------------------------3------2-----0----
-------------------------------------------3--

Verse:
listen to the song for the rhythm
------------------------------------------------
------------------------------------------------
-----0-----0-----0--0---0---0------4/--2-----1--
----0-0---0-0---0--0---0-0-0-------5/--3----2---
---3-----2-----3--2---3---2--------5/--3---2----
-----------------------------------3/--1--0-----
same as the above here
----------------------
----------------------
-----5/---7---5---7---
----5/---7----5---7---
---3/---5-----3---5---
----------------------

bridge:
"casualty.. havin fun"
 
------------------
------------------x2
--------55--------
---55-x-55-x-5------
---55-x-33-x-5------
---33-x----x-3------

--------------
--------------
-4--2-----1--
-5--3----2---
-5--3---2----
-3--1--0-----

chorus:
oh kiss me... deadly
--------------------------
--------------------------x2
----0--0-------0--0-------
---0--0-------0--0--------
--3--3---3-0-2--2---------
--------------------------

Tonight..
----------------------------------------------
--------3-----3------3---3------3------3------
------0-------0----0-0---0------0------0------
----5------4-----2-----0------0------0--------
----------------------------3------2-----0----
-------------------------------------------3--

Verse 2:
listen to the song for the exact amount of time 
-------------------------------*-----------------
--------------------------------*----------------
-----0-----0-----0--0---0---0---*---4--2-----1--
----0-0---0-0---0--0---0-0-0----*---5--3----2---
---3-----2-----3--2---3---2-----*---5--3---2----
--------------------------------*---3--1--0-----

then just this chord until bridge
Same as the above for the rhythm
---------   --------------
---------   --------------
--5------   --5/---7---------
--5------   --5/---7---------
--3------   --3/---5--------
---------   ---------------

bridge:
"casualty.. havin fun"
 
------------------
------------------x2
--------55--------
---55-x-55-x-5------
---55-x-33-x-5------
---33-x----x-3------

--------------
--------------
-4--2-----1--
-5--3----2---
-5--3---2----
-3--1--0-----

chorus2:
oh kiss me... deadly
--------------------------
--------------------------
----0--0-------0--0-------
---0--0-------0--0--------
--3--3---3-0-2--2---------
--------------------------

Tonight..
----------------------------------------------
--------3-----3------3---3------3------3------
------0-------0----0-0---0------0------0------
----5------4-----2-----0------0------0--------
----------------------------3------2-----0----
-------------------------------------------3--

Verse3:

------------------------
------------------------x3
--55555555--------------
--55555555-x-55-x-5-----
--33333333-x-55-x-5-----
-----------x-33-x-3-----

--------------
--------------
-4--2-----1--
-5--3----2---
-5--3---2----
-3--1--0-----

-------------
--------------
--5/---7---------
--5/---7---------
--3/---5--------
---------------

bridge:
".. havin fun"
 
------------------
------------------x2
--------55--------
---55-x-55-x-5------
---55-x-33-x-5------
---33-x----x-3------

--------------
--------------
-4--2-----1--
-5--3----2---
-5--3---2----
-3--1--0-----

chorus3:
oh kiss me... deadly
--------------------------
--------------------------x2
----0--0-------0--0-------
---0-
        

Текст и перевод песни Billy Idol — Kiss Me Deadly

Билли Айдол — Поцелуй меня насмерть
* начинаются искажения
~ вибрато
х нема
/ слайд

Интро:
----------------------------------------------
--------3-----3------3---3------3------3------
------0-------0----0-0---0------0------0------
----5------4-----2-----0------0------0--------
----------------------------3------2-----0----
-------------------------------------------3--

Стих:
слушать песню для ритма
------------------------------------------------
------------------------------------------------
-----0-----0-----0--0---0---0------4/--2-----1--
----0-0---0-0---0--0---0-0-0-------5/--3----2---
---3-----2-----3--2---3---2--------5/--3---2----
-----------------------------------3/--1--0-----
так же, как выше здесь
----------------------
----------------------
-----5/---7---5---7---
----5/---7----5---7---
---3/---5-----3---5---
----------------------

мост:
"раненый.. развлекаемся"

------------------
------------------Х2
--------55--------
---55-Х-55-Х-5------
---55-Х-33-х-5------
---33-х---х-3------

--------------
--------------
-4--2-----1--
-5--3----2---
-5--3---2----
-3--1--0-----

припев:
о, Поцелуй меня смертельно... 
--------------------------
--------------------------Х2
----0--0-------0--0-------
---0--0-------0--0--------
--3--3---3-0-2--2---------
--------------------------

Сегодня вечером..
----------------------------------------------
--------3-----3------3---3------3------3------
------0-------0----0-0---0------0------0------
----5------4-----2-----0------0------0--------
----------------------------3------2-----0----
-------------------------------------------3--

Стих 2:
слушать песню за точное количество времени 
-------------------------------*-----------------
--------------------------------*----------------
-----0-----0-----0--0---0---0---*---4--2-----1--
----0-0---0-0---0--0---0-0-0----*---5--3----2---
---3-----2-----3--2---3---2-----*---5--3---2----
--------------------------------*---3--1--0-----

тогда только этот аккорд до моста
Так же, как выше для ритма
--------- --------------
--------- --------------
--5------ --5/---7---------
--5------ --5/---7---------
--3------ --3/---5--------
--------- ---------------

мост:
"раненый.. развлекаемся"

------------------
------------------Х2
--------55--------
---55-Х-55-Х-5------
---55-Х-33-х-5------
---33-х---х-3------

--------------
--------------
-4--2-----1--
-5--3----2---
-5--3---2----
-3--1--0-----

chorus2:
о, Поцелуй меня смертельно... 
--------------------------
--------------------------
----0--0-------0--0-------
---0--0-------0--0--------
--3--3---3-0-2--2---------
--------------------------

Сегодня вечером..
----------------------------------------------
--------3-----3------3---3------3------3------
------0-------0----0-0---0------0------0------
----5------4-----2-----0------0------0--------
----------------------------3------2-----0----
-------------------------------------------3--

Verse3:

------------------------
------------------------Х3
--55555555--------------
--55555555-Х-55-Х-5-----
--33333333-Х-55-Х-5-----
-----------х-33-х-3-----

--------------
--------------
-4--2-----1--
-5--3----2---
-5--3---2----
-3--1--0-----

-------------
--------------
--5/---7---------
--5/---7---------
--3/---5--------
---------------

мост:
".. развлекаемся"

------------------
------------------Х2
--------55--------
---55-Х-55-Х-5------
---55-Х-33-х-5------
---33-х---х-3------

--------------
--------------
-4--2-----1--
-5--3----2---
-5--3---2----
-3--1--0-----

chorus3:
о, Поцелуй меня смертельно... 
--------------------------
--------------------------Х2
----0--0-------0--0-------
---0-
 

Текст и перевод песни Билли Айдола — Поцелуй меня смертельно

Нашли опечатку? Выделите и нажмите CTRL+Enter

Добавить комментарий

Ваш e-mail не будет опубликован. Обязательные поля помечены *